ISO-10303-21;
HEADER;
FILE_DESCRIPTION (( 'STEP AP203' ),
    '1' );
FILE_NAME ('QB-CTZQWP-20-780-M.STEP',
    '2020-12-24T01:50:23',
    ( '' ),
    ( '' ),
    'SwSTEP 2.0',
    'SolidWorks 2020',
    '' );
FILE_SCHEMA (( 'CONFIG_CONTROL_DESIGN' ));
ENDSEC;

DATA;
#1 = ADVANCED_FACE ( 'NONE', ( #117 ), #330, .F. ) ;
#2 = CALENDAR_DATE ( 2020, 24, 12 ) ;
#3 = ORIENTED_EDGE ( 'NONE', *, *, #208, .F. ) ;
#4 = ORIENTED_EDGE ( 'NONE', *, *, #5, .F. ) ;
#5 = EDGE_CURVE ( 'NONE', #100, #294, #72, .T. ) ;
#6 = CARTESIAN_POINT ( 'NONE',  ( -1.614212418857619014, 1.224646799147353256E-15, -10.00000000000000000 ) ) ;
#7 = DIRECTION ( 'NONE',  ( 0.000000000000000000, 0.000000000000000000, -1.000000000000000000 ) ) ;
#8 = VECTOR ( 'NONE', #270, 1000.000000000000000 ) ;
#9 = AXIS2_PLACEMENT_3D ( 'NONE', #260, #216, #106 ) ;
#10 = DIRECTION ( 'NONE',  ( -1.000000000000000000, -0.000000000000000000, -0.000000000000000000 ) ) ;
#11 = CARTESIAN_POINT ( 'NONE',  ( -2.500000000000000444, 1.224646799147353256E-15, -10.00000000000000000 ) ) ;
#12 = PRODUCT_DEFINITION ( 'UNKNOWN', '', #222, #174 ) ;
#13 = AXIS2_PLACEMENT_3D ( 'NONE', #73, #226, #114 ) ;
#14 = LOCAL_TIME ( 9, 50, 23.00000000000000000, #176 ) ;
#15 = DIRECTION ( 'NONE',  ( -1.000000000000000000, -0.000000000000000000, -0.000000000000000000 ) ) ;
#16 = AXIS2_PLACEMENT_3D ( 'NONE', #321, #86, #162 ) ;
#17 = CARTESIAN_POINT ( 'NONE',  ( -3.000000000000000000, 10.00000000000000000, 0.000000000000000000 ) ) ;
#18 = ORIENTED_EDGE ( 'NONE', *, *, #99, .F. ) ;
#19 = DIRECTION ( 'NONE',  ( -1.000000000000000000, -0.000000000000000000, -0.000000000000000000 ) ) ;
#20 = ORIENTED_EDGE ( 'NONE', *, *, #320, .T. ) ;
#21 = ORIENTED_EDGE ( 'NONE', *, *, #320, .F. ) ;
#22 = CARTESIAN_POINT ( 'NONE',  ( -1.614212418857619014, 0.000000000000000000, 0.000000000000000000 ) ) ;
#23 = AXIS2_PLACEMENT_3D ( 'NONE', #22, #223, #249 ) ;
#24 = LOCAL_TIME ( 9, 50, 23.00000000000000000, #200 ) ;
#25 = CARTESIAN_POINT ( 'NONE',  ( 2.999999999999999112, 0.000000000000000000, 0.000000000000000000 ) ) ;
#26 = PERSON_AND_ORGANIZATION_ROLE ( 'creator' ) ;
#27 = APPROVAL_DATE_TIME ( #307, #224 ) ;
#28 = CIRCLE ( 'NONE', #116, 12.69999999999999929 ) ;
#29 = VERTEX_POINT ( 'NONE', #80 ) ;
#30 = DIRECTION ( 'NONE',  ( -1.000000000000000000, -0.000000000000000000, -0.000000000000000000 ) ) ;
#31 = ORIENTED_EDGE ( 'NONE', *, *, #288, .F. ) ;
#32 = MANIFOLD_SOLID_BREP ( 'Ðý×', #304 ) ;
#33 = ADVANCED_BREP_SHAPE_REPRESENTATION ( 'QB-CTZQWP-20-780-M', ( #32, #289 ), #237 ) ;
#34 = CARTESIAN_POINT ( 'NONE',  ( 0.000000000000000000, 0.000000000000000000, 0.000000000000000000 ) ) ;
#35 = CARTESIAN_POINT ( 'NONE',  ( 2.500000000000000888, 0.000000000000000000, 10.00000000000000000 ) ) ;
#36 = DIRECTION ( 'NONE',  ( 0.000000000000000000, 0.000000000000000000, 1.000000000000000000 ) ) ;
#37 = ORIENTED_EDGE ( 'NONE', *, *, #104, .F. ) ;
#38 = FACE_OUTER_BOUND ( 'NONE', #217, .T. ) ;
#39 = LOCAL_TIME ( 9, 50, 23.00000000000000000, #78 ) ;
#40 = DIRECTION ( 'NONE',  ( -1.000000000000000000, 0.000000000000000000, -0.000000000000000000 ) ) ;
#41 = ORIENTED_EDGE ( 'NONE', *, *, #244, .F. ) ;
#42 = AXIS2_PLACEMENT_3D ( 'NONE', #240, #63, #7 ) ;
#43 = CC_DESIGN_PERSON_AND_ORGANIZATION_ASSIGNMENT ( #227, #81, ( #285 ) ) ;
#44 = FACE_OUTER_BOUND ( 'NONE', #82, .T. ) ;
#45 = ORIENTED_EDGE ( 'NONE', *, *, #288, .T. ) ;
#46 = EDGE_CURVE ( 'NONE', #29, #329, #207, .T. ) ;
#47 = DIRECTION ( 'NONE',  ( -1.000000000000000000, -0.000000000000000000, -0.000000000000000000 ) ) ;
#48 = CYLINDRICAL_SURFACE ( 'NONE', #23, 10.00000000000000000 ) ;
#49 = CARTESIAN_POINT ( 'NONE',  ( -1.614212418857619014, 0.000000000000000000, 10.00000000000000000 ) ) ;
#50 = APPROVAL_PERSON_ORGANIZATION ( #52, #132, #308 ) ;
#51 = PERSON_AND_ORGANIZATION ( #103, #69 ) ;
#52 = PERSON_AND_ORGANIZATION ( #103, #69 ) ;
#53 = APPROVAL_DATE_TIME ( #203, #132 ) ;
#54 = EDGE_CURVE ( 'NONE', #243, #246, #173, .T. ) ;
#55 = AXIS2_PLACEMENT_3D ( 'NONE', #234, #102, #275 ) ;
#56 = CIRCLE ( 'NONE', #138, 10.00000000000000000 ) ;
#57 = ORIENTED_EDGE ( 'NONE', *, *, #99, .T. ) ;
#58 = ORIENTED_EDGE ( 'NONE', *, *, #111, .T. ) ;
#59 = AXIS2_PLACEMENT_3D ( 'NONE', #188, #190, #136 ) ;
#60 = CARTESIAN_POINT ( 'NONE',  ( -1.614212418857619014, 0.000000000000000000, 0.000000000000000000 ) ) ;
#61 = EDGE_CURVE ( 'NONE', #257, #246, #210, .T. ) ;
#62 = MECHANICAL_CONTEXT ( 'NONE', #300, 'mechanical' ) ;
#63 = DIRECTION ( 'NONE',  ( 1.000000000000000000, 0.000000000000000000, 0.000000000000000000 ) ) ;
#64 = DIRECTION ( 'NONE',  ( 0.000000000000000000, 0.000000000000000000, 1.000000000000000000 ) ) ;
#65 = ADVANCED_FACE ( 'NONE', ( #108 ), #159, .T. ) ;
#66 = FACE_OUTER_BOUND ( 'NONE', #231, .T. ) ;
#67 = CARTESIAN_POINT ( 'NONE',  ( -3.000000000000000000, 0.000000000000000000, 0.000000000000000000 ) ) ;
#68 = ORIENTED_EDGE ( 'NONE', *, *, #46, .F. ) ;
#69 = ORGANIZATION ( 'UNSPECIFIED', 'UNSPECIFIED', '' ) ;
#70 = FACE_BOUND ( 'NONE', #168, .T. ) ;
#71 = ORIENTED_EDGE ( 'NONE', *, *, #232, .T. ) ;
#72 = LINE ( 'NONE', #153, #281 ) ;
#73 = CARTESIAN_POINT ( 'NONE',  ( -1.614212418857619014, 0.000000000000000000, 0.000000000000000000 ) ) ;
#74 = CC_DESIGN_DATE_AND_TIME_ASSIGNMENT ( #255, #180, ( #12 ) ) ;
#75 = DIRECTION ( 'NONE',  ( -1.000000000000000000, -0.000000000000000000, -0.000000000000000000 ) ) ;
#76 = APPROVAL_ROLE ( '' ) ;
#77 = VECTOR ( 'NONE', #286, 1000.000000000000000 ) ;
#78 = COORDINATED_UNIVERSAL_TIME_OFFSET ( 8, 0, .AHEAD. ) ;
#79 = EDGE_CURVE ( 'NONE', #113, #243, #318, .T. ) ;
#80 = CARTESIAN_POINT ( 'NONE',  ( -3.000000000000000444, 0.000000000000000000, 10.00000000000000000 ) ) ;
#81 = PERSON_AND_ORGANIZATION_ROLE ( 'design_owner' ) ;
#82 = EDGE_LOOP ( 'NONE', ( #41, #18 ) ) ;
#83 = CARTESIAN_POINT ( 'NONE',  ( -3.000000000000000444, 0.000000000000000000, 0.000000000000000000 ) ) ;
#84 = ORIENTED_EDGE ( 'NONE', *, *, #191, .F. ) ;
#85 = AXIS2_PLACEMENT_3D ( 'NONE', #263, #287, #160 ) ;
#86 = DIRECTION ( 'NONE',  ( 1.000000000000000000, 0.000000000000000000, 0.000000000000000000 ) ) ;
#87 = AXIS2_PLACEMENT_3D ( 'NONE', #83, #30, #278 ) ;
#88 = APPLICATION_PROTOCOL_DEFINITION ( 'international standard', 'config_control_design', 1994, #300 ) ;
#89 = CC_DESIGN_PERSON_AND_ORGANIZATION_ASSIGNMENT ( #201, #251, ( #222 ) ) ;
#90 = VERTEX_POINT ( 'NONE', #11 ) ;
#91 = DIRECTION ( 'NONE',  ( 1.000000000000000000, 0.000000000000000000, 0.000000000000000000 ) ) ;
#92 = ORIENTED_EDGE ( 'NONE', *, *, #79, .F. ) ;
#93 = CARTESIAN_POINT ( 'NONE',  ( -1.614212418857619014, 0.000000000000000000, 0.000000000000000000 ) ) ;
#94 = CARTESIAN_POINT ( 'NONE',  ( -2.500000000000000444, 0.000000000000000000, 10.00000000000000000 ) ) ;
#95 = FACE_OUTER_BOUND ( 'NONE', #241, .T. ) ;
#96 = APPROVAL_STATUS ( 'not_yet_approved' ) ;
#97 = ADVANCED_FACE ( 'NONE', ( #95 ), #139, .F. ) ;
#98 = SHAPE_DEFINITION_REPRESENTATION ( #166, #33 ) ;
#99 = EDGE_CURVE ( 'NONE', #100, #266, #165, .T. ) ;
#100 = VERTEX_POINT ( 'NONE', #163 ) ;
#101 = AXIS2_PLACEMENT_3D ( 'NONE', #93, #47, #143 ) ;
#102 = DIRECTION ( 'NONE',  ( -1.000000000000000000, -0.000000000000000000, -0.000000000000000000 ) ) ;
#103 = PERSON ( 'UNSPECIFIED', 'UNSPECIFIED', 'UNSPECIFIED', ('UNSPECIFIED'), ('UNSPECIFIED'), ('UNSPECIFIED') ) ;
#104 = EDGE_CURVE ( 'NONE', #294, #269, #28, .T. ) ;
#105 = VECTOR ( 'NONE', #323, 1000.000000000000000 ) ;
#106 = DIRECTION ( 'NONE',  ( 0.000000000000000000, 0.000000000000000000, 1.000000000000000000 ) ) ;
#107 = CC_DESIGN_PERSON_AND_ORGANIZATION_ASSIGNMENT ( #51, #205, ( #333 ) ) ;
#108 = FACE_OUTER_BOUND ( 'NONE', #314, .T. ) ;
#109 = DIRECTION ( 'NONE',  ( -1.000000000000000000, -0.000000000000000000, -0.000000000000000000 ) ) ;
#110 = DIRECTION ( 'NONE',  ( 0.000000000000000000, 0.000000000000000000, 1.000000000000000000 ) ) ;
#111 = EDGE_CURVE ( 'NONE', #246, #243, #311, .T. ) ;
#112 = CARTESIAN_POINT ( 'NONE',  ( 2.999999999999999112, 12.69999999999999929, 0.000000000000000000 ) ) ;
#113 = VERTEX_POINT ( 'NONE', #265 ) ;
#114 = DIRECTION ( 'NONE',  ( 0.000000000000000000, 0.000000000000000000, 1.000000000000000000 ) ) ;
#115 = ORIENTED_EDGE ( 'NONE', *, *, #327, .F. ) ;
#116 = AXIS2_PLACEMENT_3D ( 'NONE', #67, #141, #295 ) ;
#117 = FACE_OUTER_BOUND ( 'NONE', #313, .T. ) ;
#118 = DIRECTION ( 'NONE',  ( 0.000000000000000000, 0.000000000000000000, -1.000000000000000000 ) ) ;
#119 = DIRECTION ( 'NONE',  ( -1.000000000000000000, -0.000000000000000000, -0.000000000000000000 ) ) ;
#120 = SECURITY_CLASSIFICATION_LEVEL ( 'unclassified' ) ;
#121 = ADVANCED_FACE ( 'NONE', ( #44, #199 ), #171, .F. ) ;
#122 = PERSON_AND_ORGANIZATION ( #103, #69 ) ;
#123 = APPROVAL_STATUS ( 'not_yet_approved' ) ;
#124 = APPROVAL_STATUS ( 'not_yet_approved' ) ;
#125 = CC_DESIGN_DATE_AND_TIME_ASSIGNMENT ( #175, #148, ( #333 ) ) ;
#126 = ORIENTED_EDGE ( 'NONE', *, *, #61, .T. ) ;
#127 = DIRECTION ( 'NONE',  ( -1.000000000000000000, -0.000000000000000000, -0.000000000000000000 ) ) ;
#128 = AXIS2_PLACEMENT_3D ( 'NONE', #212, #161, #187 ) ;
#129 = CC_DESIGN_APPROVAL ( #279, ( #12 ) ) ;
#130 = ORIENTED_EDGE ( 'NONE', *, *, #191, .T. ) ;
#131 = CARTESIAN_POINT ( 'NONE',  ( -3.000000000000000000, 0.000000000000000000, 12.69999999999999929 ) ) ;
#132 = APPROVAL ( #123, 'UNSPECIFIED' ) ;
#133 = CARTESIAN_POINT ( 'NONE',  ( -3.000000000000000000, 1.555301434917138433E-15, -12.69999999999999929 ) ) ;
#134 = ADVANCED_FACE ( 'NONE', ( #70, #271 ), #301, .F. ) ;
#135 =( NAMED_UNIT ( * ) SI_UNIT ( $, .STERADIAN. ) SOLID_ANGLE_UNIT ( ) );
#136 = DIRECTION ( 'NONE',  ( 0.000000000000000000, 0.000000000000000000, 1.000000000000000000 ) ) ;
#137 = VECTOR ( 'NONE', #218, 1000.000000000000000 ) ;
#138 = AXIS2_PLACEMENT_3D ( 'NONE', #25, #119, #292 ) ;
#139 = CYLINDRICAL_SURFACE ( 'NONE', #13, 10.00000000000000000 ) ;
#140 = ORIENTED_EDGE ( 'NONE', *, *, #54, .F. ) ;
#141 = DIRECTION ( 'NONE',  ( -1.000000000000000000, -0.000000000000000000, -0.000000000000000000 ) ) ;
#142 = EDGE_LOOP ( 'NONE', ( #130, #209 ) ) ;
#143 = DIRECTION ( 'NONE',  ( 0.000000000000000000, 0.000000000000000000, 1.000000000000000000 ) ) ;
#144 = DIRECTION ( 'NONE',  ( 0.000000000000000000, 0.000000000000000000, 1.000000000000000000 ) ) ;
#145 = LOCAL_TIME ( 9, 50, 23.00000000000000000, #230 ) ;
#146 = CARTESIAN_POINT ( 'NONE',  ( -2.500000000000000444, 0.000000000000000000, 0.000000000000000000 ) ) ;
#147 = CALENDAR_DATE ( 2020, 24, 12 ) ;
#148 = DATE_TIME_ROLE ( 'classification_date' ) ;
#149 = AXIS2_PLACEMENT_3D ( 'NONE', #17, #328, #198 ) ;
#150 = COORDINATED_UNIVERSAL_TIME_OFFSET ( 8, 0, .AHEAD. ) ;
#151 = CC_DESIGN_PERSON_AND_ORGANIZATION_ASSIGNMENT ( #305, #26, ( #12 ) ) ;
#152 = VERTEX_POINT ( 'NONE', #94 ) ;
#153 = CARTESIAN_POINT ( 'NONE',  ( -1.614212418857619014, 1.555301434917138433E-15, -12.69999999999999929 ) ) ;
#154 = ORIENTED_EDGE ( 'NONE', *, *, #204, .F. ) ;
#155 = CC_DESIGN_SECURITY_CLASSIFICATION ( #333, ( #222 ) ) ;
#156 = CYLINDRICAL_SURFACE ( 'NONE', #59, 10.00000000000000000 ) ;
#157 = PLANE ( 'NONE',  #85 ) ;
#158 = APPROVAL_PERSON_ORGANIZATION ( #302, #279, #76 ) ;
#159 = CYLINDRICAL_SURFACE ( 'NONE', #128, 12.69999999999999929 ) ;
#160 = DIRECTION ( 'NONE',  ( -0.000000000000000000, 0.000000000000000000, 1.000000000000000000 ) ) ;
#161 = DIRECTION ( 'NONE',  ( -1.000000000000000000, -0.000000000000000000, -0.000000000000000000 ) ) ;
#162 = DIRECTION ( 'NONE',  ( 0.000000000000000000, 0.000000000000000000, -1.000000000000000000 ) ) ;
#163 = CARTESIAN_POINT ( 'NONE',  ( 3.000000000000000000, 1.555301434917138433E-15, -12.69999999999999929 ) ) ;
#164 = EDGE_LOOP ( 'NONE', ( #221, #140 ) ) ;
#165 = CIRCLE ( 'NONE', #322, 12.69999999999999929 ) ;
#166 = PRODUCT_DEFINITION_SHAPE ( 'NONE', 'NONE',  #12 ) ;
#167 = FACE_OUTER_BOUND ( 'NONE', #233, .T. ) ;
#168 = EDGE_LOOP ( 'NONE', ( #68, #115 ) ) ;
#169 = ORIENTED_EDGE ( 'NONE', *, *, #208, .T. ) ;
#170 = LINE ( 'NONE', #49, #8 ) ;
#171 = PLANE ( 'NONE',  #296 ) ;
#172 = APPROVAL_DATE_TIME ( #335, #279 ) ;
#173 = CIRCLE ( 'NONE', #55, 10.00000000000000000 ) ;
#174 = DESIGN_CONTEXT ( 'detailed design', #261, 'design' ) ;
#175 = DATE_AND_TIME ( #147, #14 ) ;
#176 = COORDINATED_UNIVERSAL_TIME_OFFSET ( 8, 0, .AHEAD. ) ;
#177 = CALENDAR_DATE ( 2020, 24, 12 ) ;
#178 = CIRCLE ( 'NONE', #183, 12.69999999999999929 ) ;
#179 = CIRCLE ( 'NONE', #9, 10.00000000000000000 ) ;
#180 = DATE_TIME_ROLE ( 'creation_date' ) ;
#181 = ORIENTED_EDGE ( 'NONE', *, *, #239, .T. ) ;
#182 = ORIENTED_EDGE ( 'NONE', *, *, #79, .T. ) ;
#183 = AXIS2_PLACEMENT_3D ( 'NONE', #248, #334, #267 ) ;
#184 = CIRCLE ( 'NONE', #42, 10.00000000000000000 ) ;
#185 = CARTESIAN_POINT ( 'NONE',  ( 2.500000000000000888, 1.224646799147353256E-15, -10.00000000000000000 ) ) ;
#186 = EDGE_CURVE ( 'NONE', #266, #269, #299, .T. ) ;
#187 = DIRECTION ( 'NONE',  ( 0.000000000000000000, 0.000000000000000000, 1.000000000000000000 ) ) ;
#188 = CARTESIAN_POINT ( 'NONE',  ( -1.614212418857619014, 0.000000000000000000, 0.000000000000000000 ) ) ;
#189 = CARTESIAN_POINT ( 'NONE',  ( 3.000000000000000000, 0.000000000000000000, 12.69999999999999929 ) ) ;
#190 = DIRECTION ( 'NONE',  ( -1.000000000000000000, -0.000000000000000000, -0.000000000000000000 ) ) ;
#191 = EDGE_CURVE ( 'NONE', #269, #294, #178, .T. ) ;
#192 = CARTESIAN_POINT ( 'NONE',  ( 3.000000000000000000, 0.000000000000000000, 0.000000000000000000 ) ) ;
#193 = ORIENTED_EDGE ( 'NONE', *, *, #46, .T. ) ;
#194 = ORIENTED_EDGE ( 'NONE', *, *, #54, .T. ) ;
#195 = CARTESIAN_POINT ( 'NONE',  ( 3.000000000000000000, 0.000000000000000000, 0.000000000000000000 ) ) ;
#196 = VECTOR ( 'NONE', #15, 1000.000000000000000 ) ;
#197 = ORIENTED_EDGE ( 'NONE', *, *, #244, .T. ) ;
#198 = DIRECTION ( 'NONE',  ( 0.000000000000000000, 0.000000000000000000, -1.000000000000000000 ) ) ;
#199 = FACE_BOUND ( 'NONE', #219, .T. ) ;
#200 = COORDINATED_UNIVERSAL_TIME_OFFSET ( 8, 0, .AHEAD. ) ;
#201 = PERSON_AND_ORGANIZATION ( #103, #69 ) ;
#202 = CIRCLE ( 'NONE', #259, 10.00000000000000000 ) ;
#203 = DATE_AND_TIME ( #177, #39 ) ;
#204 = EDGE_CURVE ( 'NONE', #152, #29, #170, .T. ) ;
#205 = PERSON_AND_ORGANIZATION_ROLE ( 'classification_officer' ) ;
#206 = ORIENTED_EDGE ( 'NONE', *, *, #232, .F. ) ;
#207 = CIRCLE ( 'NONE', #87, 10.00000000000000000 ) ;
#208 = EDGE_CURVE ( 'NONE', #90, #152, #202, .T. ) ;
#209 = ORIENTED_EDGE ( 'NONE', *, *, #104, .T. ) ;
#210 = LINE ( 'NONE', #309, #105 ) ;
#211 = CARTESIAN_POINT ( 'NONE',  ( 2.999999999999999112, 0.000000000000000000, 0.000000000000000000 ) ) ;
#212 = CARTESIAN_POINT ( 'NONE',  ( -1.614212418857619014, 0.000000000000000000, 0.000000000000000000 ) ) ;
#213 = DIRECTION ( 'NONE',  ( -1.000000000000000000, -0.000000000000000000, -0.000000000000000000 ) ) ;
#214 =( NAMED_UNIT ( * ) PLANE_ANGLE_UNIT ( ) SI_UNIT ( $, .RADIAN. ) );
#215 = DIRECTION ( 'NONE',  ( 0.000000000000000000, 0.000000000000000000, 1.000000000000000000 ) ) ;
#216 = DIRECTION ( 'NONE',  ( -1.000000000000000000, -0.000000000000000000, -0.000000000000000000 ) ) ;
#217 = EDGE_LOOP ( 'NONE', ( #45, #20, #277, #154 ) ) ;
#218 = DIRECTION ( 'NONE',  ( -1.000000000000000000, -0.000000000000000000, -0.000000000000000000 ) ) ;
#219 = EDGE_LOOP ( 'NONE', ( #181, #71 ) ) ;
#220 = DIRECTION ( 'NONE',  ( 0.000000000000000000, 0.000000000000000000, 1.000000000000000000 ) ) ;
#221 = ORIENTED_EDGE ( 'NONE', *, *, #111, .F. ) ;
#222 = PRODUCT_DEFINITION_FORMATION_WITH_SPECIFIED_SOURCE ( 'ANY', '', #285, .NOT_KNOWN. ) ;
#223 = DIRECTION ( 'NONE',  ( -1.000000000000000000, -0.000000000000000000, -0.000000000000000000 ) ) ;
#224 = APPROVAL ( #124, 'UNSPECIFIED' ) ;
#225 = PERSON_AND_ORGANIZATION_ROLE ( 'design_supplier' ) ;
#226 = DIRECTION ( 'NONE',  ( -1.000000000000000000, -0.000000000000000000, -0.000000000000000000 ) ) ;
#227 = PERSON_AND_ORGANIZATION ( #103, #69 ) ;
#228 = AXIS2_PLACEMENT_3D ( 'NONE', #211, #10, #110 ) ;
#229 = ADVANCED_FACE ( 'NONE', ( #167 ), #48, .F. ) ;
#230 = COORDINATED_UNIVERSAL_TIME_OFFSET ( 8, 0, .AHEAD. ) ;
#231 = EDGE_LOOP ( 'NONE', ( #31, #3 ) ) ;
#232 = EDGE_CURVE ( 'NONE', #113, #257, #56, .T. ) ;
#233 = EDGE_LOOP ( 'NONE', ( #206, #182, #194, #247 ) ) ;
#234 = CARTESIAN_POINT ( 'NONE',  ( 2.500000000000000888, 0.000000000000000000, 0.000000000000000000 ) ) ;
#235 = FACE_OUTER_BOUND ( 'NONE', #164, .T. ) ;
#236 = AXIS2_PLACEMENT_3D ( 'NONE', #192, #109, #64 ) ;
#237 =( GEOMETRIC_REPRESENTATION_CONTEXT ( 3 ) GLOBAL_UNCERTAINTY_ASSIGNED_CONTEXT ( ( #303 ) ) GLOBAL_UNIT_ASSIGNED_CONTEXT ( ( #319, #214, #135 ) ) REPRESENTATION_CONTEXT ( 'NONE', 'WORKASPACE' ) );
#238 = CARTESIAN_POINT ( 'NONE',  ( -1.614212418857619014, 1.224646799147353256E-15, -10.00000000000000000 ) ) ;
#239 = EDGE_CURVE ( 'NONE', #257, #113, #332, .T. ) ;
#240 = CARTESIAN_POINT ( 'NONE',  ( -2.500000000000000444, 0.000000000000000000, 0.000000000000000000 ) ) ;
#241 = EDGE_LOOP ( 'NONE', ( #92, #280, #126, #58 ) ) ;
#242 = DIRECTION ( 'NONE',  ( -0.000000000000000000, 0.000000000000000000, 1.000000000000000000 ) ) ;
#243 = VERTEX_POINT ( 'NONE', #185 ) ;
#244 = EDGE_CURVE ( 'NONE', #266, #100, #272, .T. ) ;
#245 = CARTESIAN_POINT ( 'NONE',  ( -1.614212418857619014, 0.000000000000000000, 12.69999999999999929 ) ) ;
#246 = VERTEX_POINT ( 'NONE', #35 ) ;
#247 = ORIENTED_EDGE ( 'NONE', *, *, #61, .F. ) ;
#248 = CARTESIAN_POINT ( 'NONE',  ( -3.000000000000000000, 0.000000000000000000, 0.000000000000000000 ) ) ;
#249 = DIRECTION ( 'NONE',  ( 0.000000000000000000, 0.000000000000000000, 1.000000000000000000 ) ) ;
#250 = CALENDAR_DATE ( 2020, 24, 12 ) ;
#251 = PERSON_AND_ORGANIZATION_ROLE ( 'creator' ) ;
#252 = ADVANCED_FACE ( 'NONE', ( #38 ), #156, .F. ) ;
#253 = APPROVAL_ROLE ( '' ) ;
#254 = APPROVAL_PERSON_ORGANIZATION ( #122, #224, #253 ) ;
#255 = DATE_AND_TIME ( #310, #145 ) ;
#256 = ORIENTED_EDGE ( 'NONE', *, *, #186, .F. ) ;
#257 = VERTEX_POINT ( 'NONE', #291 ) ;
#258 = PLANE ( 'NONE',  #16 ) ;
#259 = AXIS2_PLACEMENT_3D ( 'NONE', #146, #91, #118 ) ;
#260 = CARTESIAN_POINT ( 'NONE',  ( -3.000000000000000444, 0.000000000000000000, 0.000000000000000000 ) ) ;
#261 = APPLICATION_CONTEXT ( 'configuration controlled 3d designs of mechanical parts and assemblies' ) ;
#262 = ADVANCED_FACE ( 'NONE', ( #66 ), #258, .F. ) ;
#263 = CARTESIAN_POINT ( 'NONE',  ( 2.500000000000000444, 10.00000000000000000, 0.000000000000000000 ) ) ;
#264 = FACE_OUTER_BOUND ( 'NONE', #268, .T. ) ;
#265 = CARTESIAN_POINT ( 'NONE',  ( 2.999999999999999112, 1.224646799147353256E-15, -10.00000000000000000 ) ) ;
#266 = VERTEX_POINT ( 'NONE', #189 ) ;
#267 = DIRECTION ( 'NONE',  ( 0.000000000000000000, 0.000000000000000000, 1.000000000000000000 ) ) ;
#268 = EDGE_LOOP ( 'NONE', ( #197, #293, #84, #256 ) ) ;
#269 = VERTEX_POINT ( 'NONE', #131 ) ;
#270 = DIRECTION ( 'NONE',  ( -1.000000000000000000, -0.000000000000000000, -0.000000000000000000 ) ) ;
#271 = FACE_OUTER_BOUND ( 'NONE', #142, .T. ) ;
#272 = CIRCLE ( 'NONE', #236, 12.69999999999999929 ) ;
#273 = LOCAL_TIME ( 9, 50, 23.00000000000000000, #150 ) ;
#274 = APPLICATION_PROTOCOL_DEFINITION ( 'international standard', 'config_control_design', 1994, #261 ) ;
#275 = DIRECTION ( 'NONE',  ( 0.000000000000000000, 0.000000000000000000, 1.000000000000000000 ) ) ;
#276 = PERSON_AND_ORGANIZATION ( #103, #69 ) ;
#277 = ORIENTED_EDGE ( 'NONE', *, *, #327, .T. ) ;
#278 = DIRECTION ( 'NONE',  ( 0.000000000000000000, 0.000000000000000000, 1.000000000000000000 ) ) ;
#279 = APPROVAL ( #96, 'UNSPECIFIED' ) ;
#280 = ORIENTED_EDGE ( 'NONE', *, *, #239, .F. ) ;
#281 = VECTOR ( 'NONE', #127, 1000.000000000000000 ) ;
#282 = AXIS2_PLACEMENT_3D ( 'NONE', #331, #75, #220 ) ;
#283 = ADVANCED_FACE ( 'NONE', ( #235 ), #157, .F. ) ;
#284 = CYLINDRICAL_SURFACE ( 'NONE', #316, 12.69999999999999929 ) ;
#285 = PRODUCT ( 'QB-CTZQWP-20-780-M', 'QB-CTZQWP-20-780-M', '', ( #62 ) ) ;
#286 = DIRECTION ( 'NONE',  ( -1.000000000000000000, -0.000000000000000000, -0.000000000000000000 ) ) ;
#287 = DIRECTION ( 'NONE',  ( -1.000000000000000000, 0.000000000000000000, -0.000000000000000000 ) ) ;
#288 = EDGE_CURVE ( 'NONE', #152, #90, #184, .T. ) ;
#289 = AXIS2_PLACEMENT_3D ( 'NONE', #34, #215, #325 ) ;
#290 = LINE ( 'NONE', #238, #196 ) ;
#291 = CARTESIAN_POINT ( 'NONE',  ( 2.999999999999999112, 0.000000000000000000, 10.00000000000000000 ) ) ;
#292 = DIRECTION ( 'NONE',  ( 0.000000000000000000, 0.000000000000000000, 1.000000000000000000 ) ) ;
#293 = ORIENTED_EDGE ( 'NONE', *, *, #5, .T. ) ;
#294 = VERTEX_POINT ( 'NONE', #133 ) ;
#295 = DIRECTION ( 'NONE',  ( 0.000000000000000000, 0.000000000000000000, 1.000000000000000000 ) ) ;
#296 = AXIS2_PLACEMENT_3D ( 'NONE', #112, #40, #242 ) ;
#297 = PRODUCT_RELATED_PRODUCT_CATEGORY ( 'detail', '', ( #285 ) ) ;
#298 = ORIENTED_EDGE ( 'NONE', *, *, #186, .T. ) ;
#299 = LINE ( 'NONE', #245, #137 ) ;
#300 = APPLICATION_CONTEXT ( 'configuration controlled 3d designs of mechanical parts and assemblies' ) ;
#301 = PLANE ( 'NONE',  #149 ) ;
#302 = PERSON_AND_ORGANIZATION ( #103, #69 ) ;
#303 = UNCERTAINTY_MEASURE_WITH_UNIT (LENGTH_MEASURE( 1.000000000000000082E-05 ), #319, 'distance_accuracy_value', 'NONE');
#304 = CLOSED_SHELL ( 'NONE', ( #315, #252, #229, #283, #97, #1, #134, #65, #121, #262 ) ) ;
#305 = PERSON_AND_ORGANIZATION ( #103, #69 ) ;
#306 = CC_DESIGN_APPROVAL ( #224, ( #333 ) ) ;
#307 = DATE_AND_TIME ( #2, #273 ) ;
#308 = APPROVAL_ROLE ( '' ) ;
#309 = CARTESIAN_POINT ( 'NONE',  ( -1.614212418857619014, 0.000000000000000000, 10.00000000000000000 ) ) ;
#310 = CALENDAR_DATE ( 2020, 24, 12 ) ;
#311 = CIRCLE ( 'NONE', #282, 10.00000000000000000 ) ;
#312 = CC_DESIGN_PERSON_AND_ORGANIZATION_ASSIGNMENT ( #276, #225, ( #222 ) ) ;
#313 = EDGE_LOOP ( 'NONE', ( #21, #169, #326, #193 ) ) ;
#314 = EDGE_LOOP ( 'NONE', ( #4, #57, #298, #37 ) ) ;
#315 = ADVANCED_FACE ( 'NONE', ( #264 ), #284, .T. ) ;
#316 = AXIS2_PLACEMENT_3D ( 'NONE', #60, #213, #36 ) ;
#317 = CARTESIAN_POINT ( 'NONE',  ( -3.000000000000000444, 1.224646799147353256E-15, -10.00000000000000000 ) ) ;
#318 = LINE ( 'NONE', #6, #77 ) ;
#319 =( LENGTH_UNIT ( ) NAMED_UNIT ( * ) SI_UNIT ( .MILLI., .METRE. ) );
#320 = EDGE_CURVE ( 'NONE', #90, #329, #290, .T. ) ;
#321 = CARTESIAN_POINT ( 'NONE',  ( -2.500000000000000444, 10.00000000000000000, 0.000000000000000000 ) ) ;
#322 = AXIS2_PLACEMENT_3D ( 'NONE', #195, #19, #144 ) ;
#323 = DIRECTION ( 'NONE',  ( -1.000000000000000000, -0.000000000000000000, -0.000000000000000000 ) ) ;
#324 = CC_DESIGN_APPROVAL ( #132, ( #222 ) ) ;
#325 = DIRECTION ( 'NONE',  ( 1.000000000000000000, 0.000000000000000000, 0.000000000000000000 ) ) ;
#326 = ORIENTED_EDGE ( 'NONE', *, *, #204, .T. ) ;
#327 = EDGE_CURVE ( 'NONE', #329, #29, #179, .T. ) ;
#328 = DIRECTION ( 'NONE',  ( 1.000000000000000000, 0.000000000000000000, 0.000000000000000000 ) ) ;
#329 = VERTEX_POINT ( 'NONE', #317 ) ;
#330 = CYLINDRICAL_SURFACE ( 'NONE', #101, 10.00000000000000000 ) ;
#331 = CARTESIAN_POINT ( 'NONE',  ( 2.500000000000000888, 0.000000000000000000, 0.000000000000000000 ) ) ;
#332 = CIRCLE ( 'NONE', #228, 10.00000000000000000 ) ;
#333 = SECURITY_CLASSIFICATION ( '', '', #120 ) ;
#334 = DIRECTION ( 'NONE',  ( -1.000000000000000000, -0.000000000000000000, -0.000000000000000000 ) ) ;
#335 = DATE_AND_TIME ( #250, #24 ) ;
ENDSEC;
END-ISO-10303-21;
